ISO-10303-21;
HEADER;
FILE_DESCRIPTION (( 'STEP AP203' ),
    '1' );
FILE_NAME ('250530 STEP 1-400392-01_20542.STEP',
    '2025-05-30T09:15:30',
    ( '' ),
    ( '' ),
    'SwSTEP 2.0',
    'SolidWorks 2024',
    '' );
FILE_SCHEMA (( 'CONFIG_CONTROL_DESIGN' ));
ENDSEC;

DATA;
#1 = DATE_TIME_ROLE ( 'classification_date' ) ;
#2 = ADVANCED_FACE ( 'NONE', ( #68, #114 ), #229, .T. ) ;
#3 = AXIS2_PLACEMENT_3D ( 'NONE', #21, #141, #212 ) ;
#4 = AXIS2_PLACEMENT_3D ( 'NONE', #57, #75, #225 ) ;
#5 = ORIENTED_EDGE ( 'NONE', *, *, #84, .T. ) ;
#6 = PERSON_AND_ORGANIZATION ( #194, #139 ) ;
#7 = EDGE_LOOP ( 'NONE', ( #87 ) ) ;
#8 = COORDINATED_UNIVERSAL_TIME_OFFSET ( 2, 0, .AHEAD. ) ;
#9 = CIRCLE ( 'NONE', #22, 18.50000000000000000 ) ;
#10 = CC_DESIGN_PERSON_AND_ORGANIZATION_ASSIGNMENT ( #67, #147, ( #230 ) ) ;
#11 = PRODUCT_DEFINITION_FORMATION_WITH_SPECIFIED_SOURCE ( 'ANY', '', #138, .NOT_KNOWN. ) ;
#12 = ORIENTED_EDGE ( 'NONE', *, *, #238, .F. ) ;
#13 = COORDINATED_UNIVERSAL_TIME_OFFSET ( 2, 0, .AHEAD. ) ;
#14 = CARTESIAN_POINT ( 'NONE',  ( 6.282842712474619340, 0.000000000000000000, 35.11715728752538013 ) ) ;
#15 = DIRECTION ( 'NONE',  ( -1.000000000000000000, -0.000000000000000000, -0.000000000000000000 ) ) ;
#16 = DIRECTION ( 'NONE',  ( 0.000000000000000000, 0.000000000000000000, 1.000000000000000000 ) ) ;
#17 = CARTESIAN_POINT ( 'NONE',  ( 0.000000000000000000, 0.000000000000000000, 0.000000000000000000 ) ) ;
#18 = DIRECTION ( 'NONE',  ( -1.000000000000000000, -0.000000000000000000, -0.000000000000000000 ) ) ;
#19 = DIRECTION ( 'NONE',  ( 0.000000000000000000, 0.000000000000000000, 1.000000000000000000 ) ) ;
#20 = EDGE_CURVE ( 'NONE', #175, #175, #132, .T. ) ;
#21 = CARTESIAN_POINT ( 'NONE',  ( 0.8343145750507856562, 0.000000000000000000, 0.000000000000000000 ) ) ;
#22 = AXIS2_PLACEMENT_3D ( 'NONE', #121, #159, #19 ) ;
#23 = PERSON_AND_ORGANIZATION_ROLE ( 'classification_officer' ) ;
#24 = EDGE_LOOP ( 'NONE', ( #150 ) ) ;
#25 = APPLICATION_PROTOCOL_DEFINITION ( 'international standard', 'config_control_design', 1994, #158 ) ;
#26 = CLOSED_SHELL ( 'NONE', ( #66, #140, #2, #195, #202, #33, #161, #249 ) ) ;
#27 = DATE_TIME_ROLE ( 'creation_date' ) ;
#28 = EDGE_LOOP ( 'NONE', ( #170 ) ) ;
#29 = PERSON_AND_ORGANIZATION_ROLE ( 'design_owner' ) ;
#30 = APPLICATION_CONTEXT ( 'configuration controlled 3d designs of mechanical parts and assemblies' ) ;
#31 = ORIENTED_EDGE ( 'NONE', *, *, #38, .T. ) ;
#32 = FACE_BOUND ( 'NONE', #219, .T. ) ;
#33 = ADVANCED_FACE ( 'NONE', ( #244, #58 ), #39, .T. ) ;
#34 =( LENGTH_UNIT ( ) NAMED_UNIT ( * ) SI_UNIT ( .MILLI., .METRE. ) );
#35 = DIRECTION ( 'NONE',  ( -1.000000000000000000, -0.000000000000000000, -0.000000000000000000 ) ) ;
#36 = DIRECTION ( 'NONE',  ( 0.000000000000000000, 0.000000000000000000, -1.000000000000000000 ) ) ;
#37 = DIRECTION ( 'NONE',  ( 0.000000000000000000, 0.000000000000000000, 1.000000000000000000 ) ) ;
#38 = EDGE_CURVE ( 'NONE', #117, #117, #78, .T. ) ;
#39 = CONICAL_SURFACE ( 'NONE', #56, 35.11715728752538013, 0.7853981633974508325 ) ;
#40 = APPROVAL_PERSON_ORGANIZATION ( #201, #179, #53 ) ;
#41 = PLANE ( 'NONE',  #97 ) ;
#42 = DIRECTION ( 'NONE',  ( -1.000000000000000000, -0.000000000000000000, -0.000000000000000000 ) ) ;
#43 = CIRCLE ( 'NONE', #90, 18.49999999999999645 ) ;
#44 = PERSON_AND_ORGANIZATION ( #194, #139 ) ;
#45 = EDGE_LOOP ( 'NONE', ( #235 ) ) ;
#46 = EDGE_LOOP ( 'NONE', ( #203 ) ) ;
#47 = CALENDAR_DATE ( 2025, 30, 5 ) ;
#48 = AXIS2_PLACEMENT_3D ( 'NONE', #80, #134, #93 ) ;
#49 = ORIENTED_EDGE ( 'NONE', *, *, #125, .T. ) ;
#50 = DATE_AND_TIME ( #184, #112 ) ;
#51 = CC_DESIGN_PERSON_AND_ORGANIZATION_ASSIGNMENT ( #88, #23, ( #210 ) ) ;
#52 = EDGE_LOOP ( 'NONE', ( #54 ) ) ;
#53 = APPROVAL_ROLE ( '' ) ;
#54 = ORIENTED_EDGE ( 'NONE', *, *, #167, .T. ) ;
#55 = CARTESIAN_POINT ( 'NONE',  ( 11.16568542494921523, 0.000000000000000000, 40.00000000000000000 ) ) ;
#56 = AXIS2_PLACEMENT_3D ( 'NONE', #119, #35, #156 ) ;
#57 = CARTESIAN_POINT ( 'NONE',  ( 0.000000000000000000, 18.49999999999999645, 0.000000000000000000 ) ) ;
#58 = FACE_BOUND ( 'NONE', #52, .T. ) ;
#59 = DIRECTION ( 'NONE',  ( 0.000000000000000000, 0.000000000000000000, 1.000000000000000000 ) ) ;
#60 = FACE_OUTER_BOUND ( 'NONE', #7, .T. ) ;
#61 = DIRECTION ( 'NONE',  ( -1.000000000000000000, -0.000000000000000000, -0.000000000000000000 ) ) ;
#62 = AXIS2_PLACEMENT_3D ( 'NONE', #100, #64, #242 ) ;
#63 = FACE_OUTER_BOUND ( 'NONE', #168, .T. ) ;
#64 = DIRECTION ( 'NONE',  ( -1.000000000000000000, -0.000000000000000000, -0.000000000000000000 ) ) ;
#65 = CARTESIAN_POINT ( 'NONE',  ( 0.000000000000000000, 0.000000000000000000, 0.000000000000000000 ) ) ;
#66 = ADVANCED_FACE ( 'NONE', ( #226, #60 ), #135, .F. ) ;
#67 = PERSON_AND_ORGANIZATION ( #194, #139 ) ;
#68 = FACE_OUTER_BOUND ( 'NONE', #85, .T. ) ;
#69 = SHAPE_DEFINITION_REPRESENTATION ( #155, #191 ) ;
#70 = EDGE_LOOP ( 'NONE', ( #148 ) ) ;
#71 = APPLICATION_PROTOCOL_DEFINITION ( 'international standard', 'config_control_design', 1994, #30 ) ;
#72 = UNCERTAINTY_MEASURE_WITH_UNIT (LENGTH_MEASURE( 1.000000000000000082E-05 ), #34, 'distance_accuracy_value', 'NONE');
#73 = CONICAL_SURFACE ( 'NONE', #221, 40.00000000000000000, 0.7853981633974508325 ) ;
#74 =( NAMED_UNIT ( * ) PLANE_ANGLE_UNIT ( ) SI_UNIT ( $, .RADIAN. ) );
#75 = DIRECTION ( 'NONE',  ( 1.000000000000000000, 0.000000000000000000, 0.000000000000000000 ) ) ;
#76 = CARTESIAN_POINT ( 'NONE',  ( 11.16568542494921523, 0.000000000000000000, 0.000000000000000000 ) ) ;
#77 = CC_DESIGN_DATE_AND_TIME_ASSIGNMENT ( #127, #27, ( #230 ) ) ;
#78 = CIRCLE ( 'NONE', #106, 40.00000000000000000 ) ;
#79 = APPROVAL_PERSON_ORGANIZATION ( #44, #192, #103 ) ;
#80 = CARTESIAN_POINT ( 'NONE',  ( 0.000000000000000000, 0.000000000000000000, 0.000000000000000000 ) ) ;
#81 = CARTESIAN_POINT ( 'NONE',  ( 6.000000000000000000, 0.000000000000000000, 0.000000000000000000 ) ) ;
#82 = CC_DESIGN_PERSON_AND_ORGANIZATION_ASSIGNMENT ( #142, #181, ( #11 ) ) ;
#83 = FACE_BOUND ( 'NONE', #129, .T. ) ;
#84 = EDGE_CURVE ( 'NONE', #193, #193, #198, .T. ) ;
#85 = EDGE_LOOP ( 'NONE', ( #240 ) ) ;
#86 = MECHANICAL_CONTEXT ( 'NONE', #30, 'mechanical' ) ;
#87 = ORIENTED_EDGE ( 'NONE', *, *, #143, .T. ) ;
#88 = PERSON_AND_ORGANIZATION ( #194, #139 ) ;
#89 = PERSON_AND_ORGANIZATION ( #194, #139 ) ;
#90 = AXIS2_PLACEMENT_3D ( 'NONE', #65, #42, #101 ) ;
#91 = AXIS2_PLACEMENT_3D ( 'NONE', #206, #18, #37 ) ;
#92 = ORIENTED_EDGE ( 'NONE', *, *, #143, .F. ) ;
#93 = DIRECTION ( 'NONE',  ( 0.000000000000000000, 0.000000000000000000, 1.000000000000000000 ) ) ;
#94 = FACE_OUTER_BOUND ( 'NONE', #223, .T. ) ;
#95 = DIRECTION ( 'NONE',  ( 0.000000000000000000, 0.000000000000000000, 1.000000000000000000 ) ) ;
#96 = DIRECTION ( 'NONE',  ( 1.000000000000000000, 0.000000000000000000, 0.000000000000000000 ) ) ;
#97 = AXIS2_PLACEMENT_3D ( 'NONE', #180, #231, #122 ) ;
#98 = DIRECTION ( 'NONE',  ( 0.000000000000000000, 0.000000000000000000, 1.000000000000000000 ) ) ;
#99 = CARTESIAN_POINT ( 'NONE',  ( 0.000000000000000000, 0.000000000000000000, 18.49999999999999645 ) ) ;
#100 = CARTESIAN_POINT ( 'NONE',  ( 0.000000000000000000, 0.000000000000000000, 0.000000000000000000 ) ) ;
#101 = DIRECTION ( 'NONE',  ( 0.000000000000000000, 0.000000000000000000, 1.000000000000000000 ) ) ;
#102 = LOCAL_TIME ( 12, 15, 30.00000000000000000, #144 ) ;
#103 = APPROVAL_ROLE ( '' ) ;
#104 = ORIENTED_EDGE ( 'NONE', *, *, #185, .F. ) ;
#105 = DATE_AND_TIME ( #47, #126 ) ;
#106 = AXIS2_PLACEMENT_3D ( 'NONE', #116, #178, #98 ) ;
#107 = ORIENTED_EDGE ( 'NONE', *, *, #84, .F. ) ;
#108 = PERSON_AND_ORGANIZATION ( #194, #139 ) ;
#109 = EDGE_LOOP ( 'NONE', ( #12 ) ) ;
#110 = COORDINATED_UNIVERSAL_TIME_OFFSET ( 2, 0, .AHEAD. ) ;
#111 = AXIS2_PLACEMENT_3D ( 'NONE', #136, #207, #59 ) ;
#112 = LOCAL_TIME ( 12, 15, 30.00000000000000000, #110 ) ;
#113 = CARTESIAN_POINT ( 'NONE',  ( 0.000000000000000000, 0.000000000000000000, 40.00000000000000000 ) ) ;
#114 = FACE_OUTER_BOUND ( 'NONE', #70, .T. ) ;
#115 = CARTESIAN_POINT ( 'NONE',  ( 0.8343145750507856562, 0.000000000000000000, 40.00000000000000000 ) ) ;
#116 = CARTESIAN_POINT ( 'NONE',  ( 11.16568542494921523, 0.000000000000000000, 0.000000000000000000 ) ) ;
#117 = VERTEX_POINT ( 'NONE', #55 ) ;
#118 = CIRCLE ( 'NONE', #163, 40.00000000000000000 ) ;
#119 = CARTESIAN_POINT ( 'NONE',  ( 5.717157287525380660, 0.000000000000000000, 0.000000000000000000 ) ) ;
#120 =( GEOMETRIC_REPRESENTATION_CONTEXT ( 3 ) GLOBAL_UNCERTAINTY_ASSIGNED_CONTEXT ( ( #72 ) ) GLOBAL_UNIT_ASSIGNED_CONTEXT ( ( #34, #74, #239 ) ) REPRESENTATION_CONTEXT ( 'NONE', 'WORKASPACE' ) );
#121 = CARTESIAN_POINT ( 'NONE',  ( 12.00000000000000000, 0.000000000000000000, 0.000000000000000000 ) ) ;
#122 = DIRECTION ( 'NONE',  ( -0.000000000000000000, 0.000000000000000000, 1.000000000000000000 ) ) ;
#123 = CC_DESIGN_PERSON_AND_ORGANIZATION_ASSIGNMENT ( #6, #29, ( #138 ) ) ;
#124 = AXIS2_PLACEMENT_3D ( 'NONE', #248, #233, #215 ) ;
#125 = EDGE_CURVE ( 'NONE', #245, #245, #9, .T. ) ;
#126 = LOCAL_TIME ( 12, 15, 30.00000000000000000, #217 ) ;
#127 = DATE_AND_TIME ( #222, #228 ) ;
#128 = DATE_AND_TIME ( #199, #246 ) ;
#129 = EDGE_LOOP ( 'NONE', ( #49 ) ) ;
#130 = EDGE_LOOP ( 'NONE', ( #200 ) ) ;
#131 = VERTEX_POINT ( 'NONE', #99 ) ;
#132 = CIRCLE ( 'NONE', #232, 40.00000000000000000 ) ;
#133 = PLANE ( 'NONE',  #4 ) ;
#134 = DIRECTION ( 'NONE',  ( -1.000000000000000000, -0.000000000000000000, -0.000000000000000000 ) ) ;
#135 = CYLINDRICAL_SURFACE ( 'NONE', #124, 18.49999999999999645 ) ;
#136 = CARTESIAN_POINT ( 'NONE',  ( 5.717157287525380660, 0.000000000000000000, 0.000000000000000000 ) ) ;
#137 = AXIS2_PLACEMENT_3D ( 'NONE', #237, #234, #186 ) ;
#138 = PRODUCT ( '250530 STEP 1-400392-01_20542', '250530 STEP 1-400392-01_20542', '', ( #86 ) ) ;
#139 = ORGANIZATION ( 'UNSPECIFIED', 'UNSPECIFIED', '' ) ;
#140 = ADVANCED_FACE ( 'NONE', ( #63, #83 ), #41, .F. ) ;
#141 = DIRECTION ( 'NONE',  ( -1.000000000000000000, -0.000000000000000000, -0.000000000000000000 ) ) ;
#142 = PERSON_AND_ORGANIZATION ( #194, #139 ) ;
#143 = EDGE_CURVE ( 'NONE', #131, #131, #43, .T. ) ;
#144 = COORDINATED_UNIVERSAL_TIME_OFFSET ( 2, 0, .AHEAD. ) ;
#145 = APPROVAL ( #187, 'UNSPECIFIED' ) ;
#146 = EDGE_LOOP ( 'NONE', ( #107 ) ) ;
#147 = PERSON_AND_ORGANIZATION_ROLE ( 'creator' ) ;
#148 = ORIENTED_EDGE ( 'NONE', *, *, #185, .T. ) ;
#149 = DESIGN_CONTEXT ( 'detailed design', #158, 'design' ) ;
#150 = ORIENTED_EDGE ( 'NONE', *, *, #238, .T. ) ;
#151 = CARTESIAN_POINT ( 'NONE',  ( 12.00000000000000000, 0.000000000000000000, 0.000000000000000000 ) ) ;
#152 = FACE_OUTER_BOUND ( 'NONE', #24, .T. ) ;
#153 = CC_DESIGN_SECURITY_CLASSIFICATION ( #210, ( #11 ) ) ;
#154 = DIRECTION ( 'NONE',  ( -1.000000000000000000, -0.000000000000000000, -0.000000000000000000 ) ) ;
#155 = PRODUCT_DEFINITION_SHAPE ( 'NONE', 'NONE',  #230 ) ;
#156 = DIRECTION ( 'NONE',  ( 0.000000000000000000, 0.000000000000000000, 1.000000000000000000 ) ) ;
#157 = VERTEX_POINT ( 'NONE', #227 ) ;
#158 = APPLICATION_CONTEXT ( 'configuration controlled 3d designs of mechanical parts and assemblies' ) ;
#159 = DIRECTION ( 'NONE',  ( -1.000000000000000000, -0.000000000000000000, -0.000000000000000000 ) ) ;
#160 = CIRCLE ( 'NONE', #111, 35.11715728752538013 ) ;
#161 = ADVANCED_FACE ( 'NONE', ( #165, #213 ), #174, .T. ) ;
#162 = CC_DESIGN_DATE_AND_TIME_ASSIGNMENT ( #128, #1, ( #210 ) ) ;
#163 = AXIS2_PLACEMENT_3D ( 'NONE', #151, #154, #243 ) ;
#164 = CC_DESIGN_APPROVAL ( #145, ( #210 ) ) ;
#165 = FACE_OUTER_BOUND ( 'NONE', #45, .T. ) ;
#166 = DATE_AND_TIME ( #169, #102 ) ;
#167 = EDGE_CURVE ( 'NONE', #177, #177, #160, .T. ) ;
#168 = EDGE_LOOP ( 'NONE', ( #104 ) ) ;
#169 = CALENDAR_DATE ( 2025, 30, 5 ) ;
#170 = ORIENTED_EDGE ( 'NONE', *, *, #167, .F. ) ;
#171 = APPROVAL_STATUS ( 'not_yet_approved' ) ;
#172 = APPROVAL_ROLE ( '' ) ;
#173 = FACE_BOUND ( 'NONE', #109, .T. ) ;
#174 = CYLINDRICAL_SURFACE ( 'NONE', #48, 40.00000000000000000 ) ;
#175 = VERTEX_POINT ( 'NONE', #113 ) ;
#176 = CC_DESIGN_PERSON_AND_ORGANIZATION_ASSIGNMENT ( #89, #196, ( #11 ) ) ;
#177 = VERTEX_POINT ( 'NONE', #204 ) ;
#178 = DIRECTION ( 'NONE',  ( -1.000000000000000000, -0.000000000000000000, -0.000000000000000000 ) ) ;
#179 = APPROVAL ( #171, 'UNSPECIFIED' ) ;
#180 = CARTESIAN_POINT ( 'NONE',  ( 12.00000000000000000, 40.00000000000000000, 0.000000000000000000 ) ) ;
#181 = PERSON_AND_ORGANIZATION_ROLE ( 'creator' ) ;
#182 = MANIFOLD_SOLID_BREP ( 'Revolve1', #26 ) ;
#183 = CC_DESIGN_APPROVAL ( #179, ( #11 ) ) ;
#184 = CALENDAR_DATE ( 2025, 30, 5 ) ;
#185 = EDGE_CURVE ( 'NONE', #157, #157, #118, .T. ) ;
#186 = DIRECTION ( 'NONE',  ( 1.000000000000000000, 0.000000000000000000, 0.000000000000000000 ) ) ;
#187 = APPROVAL_STATUS ( 'not_yet_approved' ) ;
#188 = TOROIDAL_SURFACE ( 'NONE', #208, 35.39999999999999858, 0.4000000000000005218 ) ;
#189 = SECURITY_CLASSIFICATION_LEVEL ( 'unclassified' ) ;
#190 = VERTEX_POINT ( 'NONE', #14 ) ;
#191 = ADVANCED_BREP_SHAPE_REPRESENTATION ( '250530 STEP 1-400392-01_20542', ( #182, #137 ), #120 ) ;
#192 = APPROVAL ( #197, 'UNSPECIFIED' ) ;
#193 = VERTEX_POINT ( 'NONE', #115 ) ;
#194 = PERSON ( 'UNSPECIFIED', 'UNSPECIFIED', 'UNSPECIFIED', ('UNSPECIFIED'), ('UNSPECIFIED'), ('UNSPECIFIED') ) ;
#195 = ADVANCED_FACE ( 'NONE', ( #173, #94 ), #73, .T. ) ;
#196 = PERSON_AND_ORGANIZATION_ROLE ( 'design_supplier' ) ;
#197 = APPROVAL_STATUS ( 'not_yet_approved' ) ;
#198 = CIRCLE ( 'NONE', #3, 40.00000000000000000 ) ;
#199 = CALENDAR_DATE ( 2025, 30, 5 ) ;
#200 = ORIENTED_EDGE ( 'NONE', *, *, #125, .F. ) ;
#201 = PERSON_AND_ORGANIZATION ( #194, #139 ) ;
#202 = ADVANCED_FACE ( 'NONE', ( #247, #152 ), #188, .F. ) ;
#203 = ORIENTED_EDGE ( 'NONE', *, *, #20, .T. ) ;
#204 = CARTESIAN_POINT ( 'NONE',  ( 5.717157287525380660, 0.000000000000000000, 35.11715728752538013 ) ) ;
#205 = CARTESIAN_POINT ( 'NONE',  ( 12.00000000000000000, 0.000000000000000000, 18.50000000000000000 ) ) ;
#206 = CARTESIAN_POINT ( 'NONE',  ( 6.282842712474619340, 0.000000000000000000, 0.000000000000000000 ) ) ;
#207 = DIRECTION ( 'NONE',  ( -1.000000000000000000, -0.000000000000000000, -0.000000000000000000 ) ) ;
#208 = AXIS2_PLACEMENT_3D ( 'NONE', #81, #61, #16 ) ;
#209 = PRODUCT_RELATED_PRODUCT_CATEGORY ( 'detail', '', ( #138 ) ) ;
#210 = SECURITY_CLASSIFICATION ( '', '', #189 ) ;
#211 = APPROVAL_PERSON_ORGANIZATION ( #108, #145, #172 ) ;
#212 = DIRECTION ( 'NONE',  ( 0.000000000000000000, 0.000000000000000000, 1.000000000000000000 ) ) ;
#213 = FACE_OUTER_BOUND ( 'NONE', #224, .T. ) ;
#214 = CC_DESIGN_APPROVAL ( #192, ( #230 ) ) ;
#215 = DIRECTION ( 'NONE',  ( 0.000000000000000000, 0.000000000000000000, 1.000000000000000000 ) ) ;
#216 = CIRCLE ( 'NONE', #91, 35.11715728752538013 ) ;
#217 = COORDINATED_UNIVERSAL_TIME_OFFSET ( 2, 0, .AHEAD. ) ;
#218 = APPROVAL_DATE_TIME ( #50, #179 ) ;
#219 = EDGE_LOOP ( 'NONE', ( #92 ) ) ;
#220 = APPROVAL_DATE_TIME ( #105, #192 ) ;
#221 = AXIS2_PLACEMENT_3D ( 'NONE', #76, #96, #36 ) ;
#222 = CALENDAR_DATE ( 2025, 30, 5 ) ;
#223 = EDGE_LOOP ( 'NONE', ( #31 ) ) ;
#224 = EDGE_LOOP ( 'NONE', ( #5 ) ) ;
#225 = DIRECTION ( 'NONE',  ( 0.000000000000000000, 0.000000000000000000, -1.000000000000000000 ) ) ;
#226 = FACE_OUTER_BOUND ( 'NONE', #130, .T. ) ;
#227 = CARTESIAN_POINT ( 'NONE',  ( 12.00000000000000000, 0.000000000000000000, 40.00000000000000000 ) ) ;
#228 = LOCAL_TIME ( 12, 15, 30.00000000000000000, #8 ) ;
#229 = CYLINDRICAL_SURFACE ( 'NONE', #62, 40.00000000000000000 ) ;
#230 = PRODUCT_DEFINITION ( 'UNKNOWN', '', #11, #149 ) ;
#231 = DIRECTION ( 'NONE',  ( -1.000000000000000000, 0.000000000000000000, -0.000000000000000000 ) ) ;
#232 = AXIS2_PLACEMENT_3D ( 'NONE', #17, #15, #95 ) ;
#233 = DIRECTION ( 'NONE',  ( -1.000000000000000000, -0.000000000000000000, -0.000000000000000000 ) ) ;
#234 = DIRECTION ( 'NONE',  ( 0.000000000000000000, 0.000000000000000000, 1.000000000000000000 ) ) ;
#235 = ORIENTED_EDGE ( 'NONE', *, *, #20, .F. ) ;
#236 = APPROVAL_DATE_TIME ( #166, #145 ) ;
#237 = CARTESIAN_POINT ( 'NONE',  ( 0.000000000000000000, 0.000000000000000000, 0.000000000000000000 ) ) ;
#238 = EDGE_CURVE ( 'NONE', #190, #190, #216, .T. ) ;
#239 =( NAMED_UNIT ( * ) SI_UNIT ( $, .STERADIAN. ) SOLID_ANGLE_UNIT ( ) );
#240 = ORIENTED_EDGE ( 'NONE', *, *, #38, .F. ) ;
#241 = FACE_OUTER_BOUND ( 'NONE', #46, .T. ) ;
#242 = DIRECTION ( 'NONE',  ( 0.000000000000000000, 0.000000000000000000, 1.000000000000000000 ) ) ;
#243 = DIRECTION ( 'NONE',  ( 0.000000000000000000, 0.000000000000000000, 1.000000000000000000 ) ) ;
#244 = FACE_OUTER_BOUND ( 'NONE', #146, .T. ) ;
#245 = VERTEX_POINT ( 'NONE', #205 ) ;
#246 = LOCAL_TIME ( 12, 15, 30.00000000000000000, #13 ) ;
#247 = FACE_OUTER_BOUND ( 'NONE', #28, .T. ) ;
#248 = CARTESIAN_POINT ( 'NONE',  ( 0.000000000000000000, 0.000000000000000000, 0.000000000000000000 ) ) ;
#249 = ADVANCED_FACE ( 'NONE', ( #32, #241 ), #133, .F. ) ;
ENDSEC;
END-ISO-10303-21;
